HOME
EnglishEspanolItalianoFrancaise

    

SANTANA CARLOS (Messico)


Samba pa ti

ascolta questo brano su youtube
invia questo brano
a un tuo amico!!
VAI ALLA VERSIONE BASE

Intro

SOL            SIm              MIm    LAm

|-----------------3-----------------2-2----2h3p2-------| |----------3--4h5----1h3----------3--------------3-----| |-2--4--5-----------------------4----------------------| |-----------------------------5------------------------| |------------------------------------------------------| |------------------------------------------------------|

SOL            SIm              MIm   LAm

|-------------3-----------------2-2----2h3p2-------| |-------3-4h5----1h3----------3--------------3-----| |-2-4-5---------------------4----------------------| |-------------------------5------------------------| |--------------------------------------------------| |--------------------------------------------------|

LAm                RE             LAm                    RE

|-5h7--5h7p5--------5------7-----------5h7p5h7p5--------5-----------------------| |------------8---5--(8b10)---10b12------------------8--5--8b10-b8-5-5--h7p5-----| |-------------------------------------------------------------------------7-----| |-------------------------------------------------------------------------------| |-------------------------------------------------------------------------------| |-------------------------------------------------------------------------------| ^ Can be played as just 10

LAm     SIm                 LAm                  RE

|-----------------------------------------5h7-5h7p5-----------5--| |-5-----------5--------------5--7p5-----------------8-5-8-7-8----| |---7-5p4h5h7----------4-7----------7----------------------------| |---------------7------------------------------------------------| |----------------------------------------------------------------| |----------------------------------------------------------------|

SOL            SIm              MIm    LAm

|-----------------3-----------------2-2----2h3p2-------| |----------3--4h5----1h3----------3--------------3-----| |-2--4--5-----------------------4----------------------| |-----------------------------5------------------------| |------------------------------------------------------| |------------------------------------------------------|

SOL            SIm              MIm                         LAm

|-------------3-----------------2-2----2h3p2-------12-12---12p10------------| |-------3-4h5----1h3----------3--------------3----12-------------12p10------| |-2-4-5---------------------4--------------------12--------------------10p9-| |-------------------------5-------------------------------------------------| |---------------------------------------------------------------------------| |---------------------------------------------------------------------------|

LAm                RE             LAm                    RE

|-5h7--5h7p5--------5------7-----------5h7p5h7p5----------------------------| |------------8---5--8b10---10b12------------------8--5--8b10-b8-5-5--h7p5---| |-------------------------------------------------------------------------7-| |---------------------------------------------------------------------------| |---------------------------------------------------------------------------| |---------------------------------------------------------------------------|

LAm         SIm                LAm                  RE

|--------------------------------------------5h7-5h7p5-----------5--| |-5-----------5----------------------------------------8-5-8-7-8----| |---7-5p4h5h7----------------7---7h9-7---7--------------------------| |---------------7------7h8-9-----------9----------------------------| |-------------------------------------------------------------------| |-------------------------------------------------------------------|

(Organ Comes in)

SOL           SIm                     LAm               RE

|----------7--7-------10------12----------5h7-5h7p5-----------5-| |-8-8-8-10----10b12---------------------------------8-7---7-8---| |---------------------------------------------------------------| |---------------------------------------------------------------| |---------------------------------------------------------------| |---------------------------------------------------------------|

SOL           SIm                  LAm                 RE

|----------7--7-------10-----------------5h7-5h7p5-----------5-| |-8-8-8-10----10b12---13b15--r--13-----------------8-7---7-8---| |--------------------------------------------------------------| |--------------------------------------------------------------| |--------------------------------------------------------------| |--------------------------------------------------------------|

Guitar Solo (02:00):

SOL            LAm     SOL            LAm

|-----------------------------------------------| |------------8-10b12-------------8-10-----------| |----7-7-7h9-------------7-7-7h9------7h9-7---9-| |-----------------------------------------------| |-----------------------------------------------| |-----------------------------------------------|

SOL            LAm     SOL            LAm

|--------------------------------------------| |------------8-10b12-------------8-10--------| |----7-7-7h9-------------7-7-7h9------7h9p7--| |--------------------------------------------| |--------------------------------------------| |--------------------------------------------|

|---/10--10-10-10-10-10-8-7-7h8-----------7---------| |-------------------------------10-7-8-10---8-------| |-7-------------------------------------------7b9b7-| |---------------------------------------------------| |---------------------------------------------------| |---------------------------------------------------|

|-----------------------------| |---------------5-------------| |-7b9-9b7-4-7-7---7p5---------| |---------------------7p5-7---| |---------------------------7-| |-----------------------------|

|-/10--10-10----10----10----10----10-8-7-7h8-----------7---------| |------------12----12----12----12------------10-7-8-10---8-------| |----------------------------------------------------------7b9b7-| |----------------------------------------------------------------| |----------------------------------------------------------------| |----------------------------------------------------------------|

|-12-12b10-10--10-10-10-10-10-10-10------------------------| |-----------------------------------10-12p10---------10b12-| |--------------------------------------------12p9-12-------| |----------------------------------------------------------| |----------------------------------------------------------| |----------------------------------------------------------|

|-----------------------------------------------------------------------| |-15--12-15-17b15-12-15-17-17b15p12-15-15-15----------------------------| |--------------------------------------------14b16-16b14p12----12-14b16-| |-----------------------------------------------------------14----------| |-----------------------------------------------------------------------| |-----------------------------------------------------------------------|

|-------------------------12----------------15b17b15p12-------------------------| |----------------------------15-12----------------------15b17b15p12-------------| |-14b16-16b14-14p12-14b16----------16b14p12-------------------------16b14p12----| |----------------------------------------------------------------------------14-| |-------------------------------------------------------------------------------| |-------------------------------------------------------------------------------|

|-12--14-14--15-15--17-17--15-15--14-14--12-12\10-12-| |----------------------------------------------------| |----------------------------------------------------| |----------------------------------------------------| |----------------------------------------------------| |----------------------------------------------------|

|-----------------------------------5-----5-------| |-12h13p12\10h12p10\8-10p8-7----------------------| |----------------------------9--7b9---7b9---9b7-4-| |-------------------------------------------------| |-------------------------------------------------| |-------------------------------------------------|

|-------------------------------------------------------------| |-15b17-17--12-12-15b17-17---------------------------------12-| |--------------------------14b16b14p12--14b16b14p12----12-----| |---------------------------------------------------14--------| |-------------------------------------------------------------| |-------------------------------------------------------------|

|-17b19---19b17-15-17-12\--12-14-15p14p12-14p12----12--------------| |-----------------------------------------------15----15--13-12----| |---------------------------------------------------------------14-| |------------------------------------------------------------------| |------------------------------------------------------------------| |------------------------------------------------------------------|

|-----------------------------------| |-----------------------------------| |-12----12-14-16b14p12-14-12--------| |----14----------------------14-14--| |-----------------------------------| |-----------------------------------|

|----------------------------------------------------| |-/17-17\15-15\13-13\12-12\10-10\8-8\7---------------| |--------------------------------------9p7-7\5-5-4---| |--------------------------------------------------5-| |----------------------------------------------------| |----------------------------------------------------|

|-/7-10-7----7---------------------| |---------10-----------------------| |--------------b9-r7-9r7-9r7-9r7---| |--------------------------------9-| |----------------------------------| |----------------------------------|

|---------------------------------------------------------------------| |---------------------------------------------------------------------| |-7h9p7-7h9p7-7h9p7-7h9p7-7h9p7-7h9p7-7h9p7-7h9p7-7h9p7-7h9p7-----/21-| |------9-----9-----9-----9-----9-----9-----9-----9-----9-----9--------| |---------------------------------------------------------------------| |---------------------------------------------------------------------|

|-24-24-22-22-20-20-19-19\--17-17-15-14-12--| |-------------------------------------------| |-------------------------------------------| |-------------------------------------------| |-------------------------------------------| |-------------------------------------------|

|-------------------12----------------12----------------12----------------12----------| |-15b17b15p12-12-12----15p12-------12----15p12-------12----15p12-------12----15p14----| |----------------------------14b16-------------14b16-------------14b16-------------14-| |-------------------------------------------------------------------------------------| |-------------------------------------------------------------------------------------| |-------------------------------------------------------------------------------------|

|----------17b15p12-------------------15-14-12------------12--------------------| |-------------------12--15p12------------------15p12-15\------------------------| |-14b16-12--------------------14-12--------------------------16b14p12-12----12\-| |------------------------------------------------------------------------14-----| |-------------------------------------------------------------------------------| |-------------------------------------------------------------------------------|

|-----------------------------------------------------| |-----12-13----12-------12----------------------------| |-14--------14----12-14----12-14-14-------------------| |-----------------------------------14-14--15.5b14-14-| |-----------------------------------------------------| |-----------------------------------------------------|

|-12------12--12h14--12h14p12----------------------12h14-12h14p12----| |----15-----------------------15---12-15-17b15b17-----------------15-| |--------------------------------------------------------------------| |--------------------------------------------------------------------| |--------------------------------------------------------------------| |--------------------------------------------------------------------|

|-------------------------------------------------------| |-12-15-------------------------------------------------| |-------16b14p12-14-16b14p12-14-16b14p12-14-16b14p12-14-| |-------------------------------------------------------| |-------------------------------------------------------| |-------------------------------------------------------|

|----------------------------------------------------------12----------15\/-| |----------------------------------------------15b17-17-12----15p12----15\/-| |-14b16-16-14b16-16-14b16-16-14b16-16-14b16-16----------------------14------| |---------------------------------------------------------------------------| |---------------------------------------------------------------------------| |---------------------------------------------------------------------------|

(Fade Away) |-3p2p0-------------------| |-------3-0---------------| |------------0------------| |--------------4-0-2------| |---------------------0-2-| |-------------------------|